0
SECTION
2
HEADER
9
$INSUNITS
70
4
9
$ACADVER
1
AC1014
9
$HANDSEED
5
FFFF
0
ENDSEC
0
SECTION
2
TABLES
0
TABLE
2
VPORT
5
8
100
AcDbSymbolTable
0
ENDTAB
0
TABLE
2
LTYPE
5
5
100
AcDbSymbolTable
0
LTYPE
5
14
100
AcDbSymbolTableRecord
100
AcDbLinetypeTableRecord
2
BYBLOCK
70
0
0
LTYPE
5
15
100
AcDbSymbolTableRecord
100
AcDbLinetypeTableRecord
2
BYLAYER
70
0
0
ENDTAB
0
TABLE
2
LAYER
5
2
100
AcDbSymbolTable
70
2
0
LAYER
5
50
100
AcDbSymbolTableRecord
100
AcDbLayerTableRecord
2
0
70
0
6
CONTINUOUS
0
ENDTAB
0
TABLE
2
STYLE
5
3
100
AcDbSymbolTable
70
1
0
STYLE
5
11
100
AcDbSymbolTableRecord
100
AcDbTextStyleTableRecord
2
STANDARD
70
0
0
ENDTAB
0
TABLE
2
VIEW
5
6
100
AcDbSymbolTable
70
0
0
ENDTAB
0
TABLE
2
UCS
5
7
100
AcDbSymbolTable
70
0
0
ENDTAB
0
TABLE
2
APPID
5
9
100
AcDbSymbolTable
70
2
0
APPID
5
12
100
AcDbSymbolTableRecord
100
AcDbRegAppTableRecord
2
ACAD
70
0
0
ENDTAB
0
TABLE
2
DIMSTYLE
5
A
100
AcDbSymbolTable
70
1
0
ENDTAB
0
TABLE
2
BLOCK_RECORD
5
1
100
AcDbSymbolTable
70
1
0
BLOCK_RECORD
5
1F
100
AcDbSymbolTableRecord
100
AcDbBlockTableRecord
2
*MODEL_SPACE
0
BLOCK_RECORD
5
1B
100
AcDbSymbolTableRecord
100
AcDbBlockTableRecord
2
*PAPER_SPACE
0
ENDTAB
0
ENDSEC
0
SECTION
2
BLOCKS
0
BLOCK
5
20
100
AcDbEntity
100
AcDbBlockBegin
2
*MODEL_SPACE
0
ENDBLK
5
21
100
AcDbEntity
100
AcDbBlockEnd
0
BLOCK
5
1C
100
AcDbEntity
100
AcDbBlockBegin
2
*PAPER_SPACE
0
ENDBLK
5
1D
100
AcDbEntity
100
AcDbBlockEnd
0
ENDSEC
0
SECTION
2
ENTITIES
0
LWPOLYLINE
5
100
100
AcDbEntity
8
0
100
AcDbPolyline
90
6
70
1
43
0.0
10
718.53014067677964
20
61.999999999999993
10
681.46985932321957
20
61.999999999999993
42
0.84681015710241081
10
680.16976924984635
20
54.217174891550464
10
698.69990992662656
20
47.848693330433257
42
0.16704603473123766
10
701.30009007337298
20
47.848693330433285
10
719.83023075015285
20
54.217174891550428
42
0.84681015710241214
0
LWPOLYLINE
5
101
100
AcDbEntity
8
0
100
AcDbPolyline
90
6
70
1
43
0.0
10
17.999999999999968
20
55.270266524969742
10
17.999999999999989
20
22
42
0.41421356237309698
10
22.000000000000028
20
18
10
118.80529230479631
20
18
42
0.84681015710239982
10
120.10538237816959
20
25.782825108449529
10
23.300090073373241
20
59.053091633419264
42
0.51485133716829001
0
LINE
5
102
100
AcDbEntity
8
0
100
AcDbLine
10
1400
20
80
30
0
11
0
21
80
31
0
0
LINE
5
103
100
AcDbEntity
8
0
100
AcDbLine
10
0
20
80
30
0
11
0
21
0
31
0
0
LINE
5
104
100
AcDbEntity
8
0
100
AcDbLine
10
999.33571428571418
20
0
30
0
11
1192.0928571428572
21
0
31
0
0
LINE
5
105
100
AcDbEntity
8
0
100
AcDbLine
10
1400
20
0
30
0
11
1400
21
80
31
0
0
LWPOLYLINE
5
106
100
AcDbEntity
8
0
100
AcDbPolyline
90
4
70
1
43
0.0
10
4.9500000000000099
20
74.000000000000014
42
-0.99999999999999989
10
10.050000000000008
20
74.000000000000014
10
10.050000000000011
20
64.713445739534336
42
-3.5837042115820914
10
4.9500000000000117
20
64.713445739534336
0
LINE
5
107
100
AcDbEntity
8
0
100
AcDbLine
10
801.47857142857129
20
74.000000000000014
30
0
11
801.47857142857129
21
64.71344573953435
31
0
0
ARC
5
108
100
AcDbEntity
8
0
100
AcDbCircle
10
798.92857142857133
20
60.500000000000007
30
0
40
4.9250000000000096
210
0
220
0
230
1
100
AcDbArc
50
-238.8174485393352
51
58.817448539337896
0
LINE
5
109
100
AcDbEntity
8
0
100
AcDbLine
10
796.37857142857126
20
64.713445739534293
30
0
11
796.37857142857138
21
74.000000000000014
31
0
0
ARC
5
110
100
AcDbEntity
8
0
100
AcDbCircle
10
798.92857142857133
20
74.000000000000014
30
0
40
2.5499999999999545
210
0
220
0
230
1
100
AcDbArc
50
0
51
180
0
LINE
5
111
100
AcDbEntity
8
0
100
AcDbLine
10
405.76428571428573
20
74.000000000000014
30
0
11
405.76428571428573
21
64.713445739534322
31
0
0
ARC
5
112
100
AcDbEntity
8
0
100
AcDbCircle
10
403.21428571428567
20
60.500000000000007
30
0
40
4.9250000000000025
210
0
220
0
230
1
100
AcDbArc
50
-238.81744853933594
51
58.81744853933651
0
LINE
5
113
100
AcDbEntity
8
0
100
AcDbLine
10
400.66428571428565
20
64.713445739534322
30
0
11
400.66428571428565
21
74.000000000000014
31
0
0
ARC
5
114
100
AcDbEntity
8
0
100
AcDbCircle
10
403.21428571428567
20
74.000000000000014
30
0
40
2.5500000000000256
210
0
220
0
230
1
100
AcDbArc
50
0
51
180
0
LINE
5
115
100
AcDbEntity
8
0
100
AcDbLine
10
207.90714285714284
20
74.000000000000014
30
0
11
207.90714285714284
21
64.713445739534336
31
0
0
ARC
5
116
100
AcDbEntity
8
0
100
AcDbCircle
10
205.35714285714283
20
60.500000000000007
30
0
40
4.9249999999999998
210
0
220
0
230
1
100
AcDbArc
50
-238.81744853933631
51
58.817448539336027
0
LINE
5
117
100
AcDbEntity
8
0
100
AcDbLine
10
202.80714285714285
20
64.713445739534336
30
0
11
202.80714285714285
21
74.000000000000014
31
0
0
ARC
5
118
100
AcDbEntity
8
0
100
AcDbCircle
10
205.35714285714283
20
74.000000000000014
30
0
40
2.5499999999999901
210
0
220
0
230
1
100
AcDbArc
50
0
51
180
0
LINE
5
119
100
AcDbEntity
8
0
100
AcDbLine
10
999.33571428571418
20
74.000000000000014
30
0
11
999.33571428571418
21
64.71344573953435
31
0
0
ARC
5
120
100
AcDbEntity
8
0
100
AcDbCircle
10
996.78571428571422
20
60.500000000000007
30
0
40
4.9250000000000096
210
0
220
0
230
1
100
AcDbArc
50
-238.81744853933407
51
58.817448539339026
0
LINE
5
121
100
AcDbEntity
8
0
100
AcDbLine
10
994.23571428571404
20
64.713445739534293
30
0
11
994.23571428571427
21
74.000000000000014
31
0
0
ARC
5
122
100
AcDbEntity
8
0
100
AcDbCircle
10
996.78571428571422
20
74.000000000000014
30
0
40
2.5499999999999545
210
0
220
0
230
1
100
AcDbArc
50
0
51
180
0
LINE
5
123
100
AcDbEntity
8
0
100
AcDbLine
10
603.62142857142862
20
74.000000000000014
30
0
11
603.62142857142862
21
64.713445739534322
31
0
0
ARC
5
124
100
AcDbEntity
8
0
100
AcDbCircle
10
601.07142857142856
20
60.500000000000007
30
0
40
4.9250000000000025
210
0
220
0
230
1
100
AcDbArc
50
-238.81744853933535
51
58.81744853933651
0
LINE
5
125
100
AcDbEntity
8
0
100
AcDbLine
10
598.52142857142849
20
64.713445739534322
30
0
11
598.52142857142849
21
74.000000000000014
31
0
0
ARC
5
126
100
AcDbEntity
8
0
100
AcDbCircle
10
601.07142857142856
20
74.000000000000014
30
0
40
2.5500000000000256
210
0
220
0
230
1
100
AcDbArc
50
0
51
180
0
LINE
5
127
100
AcDbEntity
8
0
100
AcDbLine
10
994.23571428571427
20
0
30
0
11
994.23571428571427
21
5.9999999999999876
31
0
0
ARC
5
128
100
AcDbEntity
8
0
100
AcDbCircle
10
996.78571428571422
20
6.000000000000032
30
0
40
2.5499999999999545
210
0
220
0
230
1
100
AcDbArc
50
0
51
180
0
LINE
5
129
100
AcDbEntity
8
0
100
AcDbLine
10
999.33571428571418
20
5.9999999999999876
30
0
11
999.33571428571418
21
0
31
0
0
LINE
5
130
100
AcDbEntity
8
0
100
AcDbLine
10
0
20
0
30
0
11
4.9500000000000091
21
0
31
0
0
LINE
5
131
100
AcDbEntity
8
0
100
AcDbLine
10
4.9500000000000091
20
0
30
0
11
4.9500000000000099
21
5.9999999999999876
31
0
0
ARC
5
132
100
AcDbEntity
8
0
100
AcDbCircle
10
7.5000000000000089
20
5.9999999999999876
30
0
40
2.5499999999999989
210
0
220
0
230
1
100
AcDbArc
50
0
51
180
0
LINE
5
133
100
AcDbEntity
8
0
100
AcDbLine
10
10.050000000000008
20
5.9999999999999876
30
0
11
10.050000000000008
21
0
31
0
0
LINE
5
134
100
AcDbEntity
8
0
100
AcDbLine
10
10.050000000000008
20
0
30
0
11
202.80714285714288
21
0
31
0
0
LINE
5
135
100
AcDbEntity
8
0
100
AcDbLine
10
202.80714285714288
20
0
30
0
11
202.80714285714285
21
5.9999999999999876
31
0
0
ARC
5
136
100
AcDbEntity
8
0
100
AcDbCircle
10
205.35714285714283
20
6.0000000000000142
30
0
40
2.5499999999999901
210
0
220
0
230
1
100
AcDbArc
50
0
51
180
0
LINE
5
137
100
AcDbEntity
8
0
100
AcDbLine
10
207.90714285714284
20
5.9999999999999876
30
0
11
207.90714285714287
21
0
31
0
0
LINE
5
138
100
AcDbEntity
8
0
100
AcDbLine
10
207.90714285714287
20
0
30
0
11
400.66428571428571
21
0
31
0
0
LINE
5
139
100
AcDbEntity
8
0
100
AcDbLine
10
400.66428571428571
20
0
30
0
11
400.66428571428565
21
5.9999999999999876
31
0
0
ARC
5
140
100
AcDbEntity
8
0
100
AcDbCircle
10
403.21428571428567
20
5.9999999999999964
30
0
40
2.5500000000000256
210
0
220
0
230
1
100
AcDbArc
50
0
51
180
0
LINE
5
141
100
AcDbEntity
8
0
100
AcDbLine
10
405.76428571428573
20
5.9999999999999876
30
0
11
405.76428571428573
21
0
31
0
0
LINE
5
142
100
AcDbEntity
8
0
100
AcDbLine
10
405.76428571428573
20
0
30
0
11
598.52142857142849
21
0
31
0
0
LINE
5
143
100
AcDbEntity
8
0
100
AcDbLine
10
598.52142857142849
20
0
30
0
11
598.52142857142849
21
5.9999999999999876
31
0
0
ARC
5
144
100
AcDbEntity
8
0
100
AcDbCircle
10
601.07142857142856
20
5.9999999999999254
30
0
40
2.5500000000000256
210
0
220
-0
230
1
100
AcDbArc
50
0
51
180
0
LINE
5
145
100
AcDbEntity
8
0
100
AcDbLine
10
603.62142857142862
20
5.9999999999999876
30
0
11
603.62142857142862
21
0
31
0
0
LINE
5
146
100
AcDbEntity
8
0
100
AcDbLine
10
603.62142857142862
20
0
30
0
11
796.37857142857138
21
0
31
0
0
LINE
5
147
100
AcDbEntity
8
0
100
AcDbLine
10
796.37857142857138
20
0
30
0
11
796.37857142857138
21
5.9999999999999876
31
0
0
ARC
5
148
100
AcDbEntity
8
0
100
AcDbCircle
10
798.92857142857133
20
6.000000000000032
30
0
40
2.5499999999999545
210
0
220
0
230
1
100
AcDbArc
50
0
51
180
0
LINE
5
149
100
AcDbEntity
8
0
100
AcDbLine
10
801.47857142857129
20
5.9999999999999876
30
0
11
801.47857142857129
21
0
31
0
0
LINE
5
150
100
AcDbEntity
8
0
100
AcDbLine
10
801.47857142857129
20
0
30
0
11
994.23571428571427
21
0
31
0
0
SPLINE
5
151
100
AcDbEntity
8
0
100
AcDbSpline
70
0
71
3
72
8
73
4
74
0
42
0.000000001
43
0.0000000001
44
0.0000000001
40
-1
40
-1
40
-1
40
-1
40
0
40
0
40
0
40
0
10
666.16800688948842
20
10.473014426118485
30
0
10
666.24128518948828
20
10.162475726118437
30
0
10
666.1021772894884
20
9.840652826118518
30
0
10
665.82585688948836
20
9.6811251261184044
30
0
0
LINE
5
152
100
AcDbEntity
8
0
100
AcDbLine
10
665.82585688948825
20
9.6811251261184044
30
0
11
661.96686748948832
21
7.4530434261187919
31
0
0
SPLINE
5
153
100
AcDbEntity
8
0
100
AcDbSpline
70
0
71
3
72
8
73
4
74
0
42
0.000000001
43
0.0000000001
44
0.0000000001
40
-1
40
-1
40
-1
40
-1
40
0
40
0
40
0
40
0
10
661.96686748948832
20
7.4530434261187919
30
0
10
661.69053928948847
20
7.2935076261186103
30
0
10
661.3423274894883
20
7.3340094261185094
30
0
10
661.11002068948835
20
7.5527271261185778
30
0
0
SPLINE
5
154
100
AcDbEntity
8
0
100
AcDbSpline
70
0
71
3
72
8
73
4
74
0
42
0.000000001
43
0.0000000001
44
0.0000000001
40
-1
40
-1
40
-1
40
-1
40
0
40
0
40
0
40
0
10
661.11002068948835
20
7.5527271261185778
30
0
10
657.76229278948847
20
10.704811826118716
30
0
10
653.72695198948827
20
13.034712326118605
30
0
10
649.32329848948848
20
14.357893526118502
30
0
0
SPLINE
5
155
100
AcDbEntity
8
0
100
AcDbSpline
70
0
71
3
72
8
73
4
74
0
42
0.000000001
43
0.0000000001
44
0.0000000001
40
-1
40
-1
40
-1
40
-1
40
0
40
0
40
0
40
0
10
649.32329848948848
20
14.357893526118502
30
0
10
649.01774428948841
20
14.449714526118488
30
0
10
648.8084459894884
20
14.731035626118496
30
0
10
648.8084459894884
20
15.050099126118583
30
0
0
LINE
5
156
100
AcDbEntity
8
0
100
AcDbLine
10
648.8084459894884
20
15.050099126118583
30
0
11
648.8084459894884
21
19.50610622611865
31
0
0
SPLINE
5
157
100
AcDbEntity
8
0
100
AcDbSpline
70
0
71
3
72
8
73
4
74
0
42
0.000000001
43
0.0000000001
44
0.0000000001
40
-1
40
-1
40
-1
40
-1
40
0
40
0
40
0
40
0
10
666.16800688948842
20
24.083190926118725
30
0
10
665.11208908948845
20
19.607925326118462
30
0
10
665.11208908948845
20
14.94828002611853
30
0
10
666.16800688948842
20
10.473014426118485
30
0
0
LWPOLYLINE
5
158
100
AcDbEntity
8
0
100
AcDbPolyline
90
4
70
1
43
0.0
10
1395.05
20
64.713445739534336
10
1395.05
20
74.000000000000014
42
0.99999999999999989
10
1389.95
20
74.000000000000014
10
1389.95
20
64.713445739534336
42
3.5837042115821407
0
ARC
5
159
100
AcDbEntity
8
0
100
AcDbCircle
10
1194.6428571428571
20
60.500000000000007
30
0
40
4.9250000000000096
210
0
220
0
230
1
100
AcDbArc
50
-238.81744853933407
51
58.817448539339026
0
LINE
5
160
100
AcDbEntity
8
0
100
AcDbLine
10
1192.0928571428569
20
64.713445739534293
30
0
11
1192.0928571428572
21
74.000000000000014
31
0
0
ARC
5
161
100
AcDbEntity
8
0
100
AcDbCircle
10
1194.6428571428571
20
74.000000000000014
30
0
40
2.5499999999999545
210
0
220
0
230
1
100
AcDbArc
50
0
51
180
0
LINE
5
162
100
AcDbEntity
8
0
100
AcDbLine
10
1197.1928571428571
20
74.000000000000014
30
0
11
1197.1928571428571
21
64.71344573953435
31
0
0
LINE
5
163
100
AcDbEntity
8
0
100
AcDbLine
10
1192.0928571428572
20
0
30
0
11
1192.0928571428572
21
5.9999999999999876
31
0
0
ARC
5
164
100
AcDbEntity
8
0
100
AcDbCircle
10
1194.6428571428571
20
6.000000000000032
30
0
40
2.5499999999999545
210
0
220
0
230
1
100
AcDbArc
50
0
51
180
0
LINE
5
165
100
AcDbEntity
8
0
100
AcDbLine
10
1197.1928571428571
20
5.9999999999999876
30
0
11
1197.1928571428571
21
0
31
0
0
LINE
5
166
100
AcDbEntity
8
0
100
AcDbLine
10
1197.1928571428571
20
0
30
0
11
1389.95
21
0
31
0
0
LINE
5
167
100
AcDbEntity
8
0
100
AcDbLine
10
1389.95
20
0
30
0
11
1389.95
21
5.9999999999999876
31
0
0
ARC
5
168
100
AcDbEntity
8
0
100
AcDbCircle
10
1392.5
20
5.9999999999999876
30
0
40
2.5499999999999545
210
0
220
0
230
1
100
AcDbArc
50
0
51
180
0
LINE
5
169
100
AcDbEntity
8
0
100
AcDbLine
10
1395.05
20
5.9999999999999876
30
0
11
1395.05
21
0
31
0
0
LINE
5
170
100
AcDbEntity
8
0
100
AcDbLine
10
1395.05
20
0
30
0
11
1400
21
0
31
0
0
SPLINE
5
171
100
AcDbEntity
8
0
100
AcDbSpline
70
0
71
3
72
8
73
4
74
0
42
0.000000001
43
0.0000000001
44
0.0000000001
40
-1
40
-1
40
-1
40
-1
40
0
40
0
40
0
40
0
10
648.8084459894884
20
19.50610622611865
30
0
10
648.8084459894884
20
19.825169726118506
30
0
10
649.01774428948841
20
20.106498626118565
30
0
10
649.32329848948848
20
20.198312426118751
30
0
0
SPLINE
5
172
100
AcDbEntity
8
0
100
AcDbSpline
70
0
71
3
72
8
73
4
74
0
42
0.000000001
43
0.0000000001
44
0.0000000001
40
-1
40
-1
40
-1
40
-1
40
0
40
0
40
0
40
0
10
649.32329848948848
20
20.198312426118751
30
0
10
653.72695198948827
20
21.521501726118469
30
0
10
657.76229278948847
20
23.851398326118435
30
0
10
661.11002068948835
20
27.003474026118475
30
0
0
SPLINE
5
173
100
AcDbEntity
8
0
100
AcDbSpline
70
0
71
3
72
8
73
4
74
0
42
0.000000001
43
0.0000000001
44
0.0000000001
40
-1
40
-1
40
-1
40
-1
40
0
40
0
40
0
40
0
10
661.11002068948835
20
27.003474026118475
30
0
10
661.24069348948842
20
27.126513326118548
30
0
10
661.40791678948835
20
27.193085126118568
30
0
10
661.57851898948832
20
27.199435226118531
30
0
0
SPLINE
5
174
100
AcDbEntity
8
0
100
AcDbSpline
70
0
71
3
72
8
73
4
74
0
42
0.000000001
43
0.0000000001
44
0.0000000001
40
-1
40
-1
40
-1
40
-1
40
0
40
0
40
0
40
0
10
661.57851898948832
20
27.199435226118531
30
0
10
661.71121018948838
20
27.204396026118474
30
0
10
661.84597378948843
20
27.172955726118477
30
0
10
661.96686748948832
20
27.103161326118396
30
0
0
LINE
5
175
100
AcDbEntity
8
0
100
AcDbLine
10
661.96686748948832
20
27.103161326118396
30
0
11
665.82585688948836
21
24.875081126118385
31
0
0
SPLINE
5
176
100
AcDbEntity
8
0
100
AcDbSpline
70
0
71
3
72
8
73
4
74
0
42
0.000000001
43
0.0000000001
44
0.0000000001
40
-1
40
-1
40
-1
40
-1
40
0
40
0
40
0
40
0
10
665.82585688948836
20
24.875081126118385
30
0
10
666.1021772894884
20
24.715545326118431
30
0
10
666.24128578948842
20
24.393729626118308
30
0
10
666.16800688948842
20
24.083190926118725
30
0
0
LWPOLYLINE
5
177
100
AcDbEntity
8
0
100
AcDbPolyline
90
6
70
1
43
0.0
10
290.60890333611633
20
54.217174891550428
10
388.91419564091228
20
20.431384900876814
42
0.51485133716828846
10
394.21428571428555
20
24.214210009326337
10
394.21428571428584
20
57.999999999999964
42
0.41421356237309764
10
390.21428571428589
20
61.999999999999993
10
291.90899340948954
20
62
42
0.84681015710240892
0
LWPOLYLINE
5
178
100
AcDbEntity
8
0
100
AcDbPolyline
90
6
70
1
43
0.0
10
412.21428571428561
20
55.785789990673663
10
412.21428571428561
20
22
42
0.41421356237309503
10
416.21428571428561
20
18
10
514.51957801908191
20
18
42
0.84681015710240359
10
515.81966809245512
20
25.782825108449533
10
417.51437578765888
20
59.568615099123207
42
0.51485133716828591
0
LWPOLYLINE
5
179
100
AcDbEntity
8
0
100
AcDbPolyline
90
6
70
1
43
0.0
10
698.69990992662702
20
32.151306669566466
10
680.16976924984783
20
25.782825108449515
42
0.84681015710239582
10
681.46985932322127
20
18
10
718.53014067677975
20
18.000000000000004
42
0.84681015710241136
10
719.83023075015296
20
25.782825108449543
10
701.30009007337344
20
32.15130666956653
42
0.16704603473123797
0
LWPOLYLINE
5
180
100
AcDbEntity
8
0
100
AcDbPolyline
90
6
70
1
43
0.0
10
1083.3375648380606
20
18
10
1181.6428571428571
20
18
42
0.41421356237309503
10
1185.6428571428571
20
22
10
1185.6428571428571
20
55.785789990673777
42
0.51485133716828724
10
1180.3427670694839
20
59.568615099123264
10
1082.0374747646874
20
25.782825108449501
42
0.8468101571024097
0
LWPOLYLINE
5
181
100
AcDbEntity
8
0
100
AcDbPolyline
90
6
70
1
43
0.0
10
615.37151864480199
20
18.316563366534478
10
667.45628117032095
20
36.217174891550407
42
0.71372845670186957
10
667.45628117032095
20
43.782825108449536
10
615.37151864480199
20
61.68343663346544
42
0.51485133716829157
10
610.07142857142867
20
57.900611525015918
10
610.07142857142867
20
22.099388474984053
42
0.51485133716829024
0
LWPOLYLINE
5
182
100
AcDbEntity
8
0
100
AcDbPolyline
90
6
70
1
43
0.0
10
214.35714285714283
20
55.785789990673777
10
214.35714285714283
20
21.999999999999996
42
0.41421356237309503
10
218.35714285714286
20
18
10
316.66243516193936
20
18
42
0.84681015710240337
10
317.96252523531268
20
25.782825108449529
10
219.6572329305161
20
59.568615099123306
42
0.51485133716829146
0
LWPOLYLINE
5
183
100
AcDbEntity
8
0
100
AcDbPolyline
90
6
70
1
43
0.0
10
196.35714285714286
20
24.214210009326273
10
196.35714285714286
20
58
42
0.41421356237309503
10
192.35714285714289
20
61.999999999999993
10
94.051850552346465
20
61.999999999999993
42
0.84681015710240382
10
92.751760478973182
20
54.217174891550464
10
191.05705278376959
20
20.431384900876736
42
0.51485133716829123
0
LWPOLYLINE
5
184
100
AcDbEntity
8
0
100
AcDbPolyline
90
6
70
1
43
0.0
10
488.46604619325899
20
54.217174891550457
10
586.77133849805546
20
20.431384900876672
42
0.51485133716829279
10
592.07142857142878
20
24.214210009326244
10
592.07142857142867
20
58.000000000000014
42
0.4142135623730937
10
588.07142857142867
20
61.999999999999993
10
489.76613626663232
20
61.999999999999993
42
0.84681015710240415
0
LWPOLYLINE
5
185
100
AcDbEntity
8
0
100
AcDbPolyline
90
6
70
1
43
0.0
10
732.54371882967894
20
36.217174891550357
10
784.62848135519789
20
18.316563366534517
42
0.51485133716828602
10
789.92857142857133
20
22.099388474984035
10
789.92857142857133
20
57.900611525015947
42
0.51485133716829812
10
784.62848135519778
20
61.683436633465469
10
732.54371882967871
20
43.782825108449337
42
0.71372845670185248
0
LWPOLYLINE
5
186
100
AcDbEntity
8
0
100
AcDbPolyline
90
6
70
1
43
0.0
10
813.22866150194443
20
20.431384900876669
10
911.53395380674078
20
54.217174891550442
42
0.84681015710241159
10
910.23386373336757
20
61.999999999999993
10
811.92857142857122
20
61.999999999999993
42
0.41421356237309503
10
807.9285714285711
20
58
10
807.9285714285711
20
24.214210009326194
42
0.51485133716828635
0
LWPOLYLINE
5
187
100
AcDbEntity
8
0
100
AcDbPolyline
90
6
70
1
43
0.0
10
1208.9429472162303
20
20.431384900876786
10
1307.2482395210268
20
54.217174891550499
42
0.84681015710240992
10
1305.9481494476536
20
61.999999999999993
10
1207.6428571428571
20
62
42
0.41421356237309503
10
1203.6428571428569
20
58
10
1203.6428571428569
20
24.214210009326258
42
0.51485133716828768
0
LWPOLYLINE
5
188
100
AcDbEntity
8
0
100
AcDbPolyline
90
6
70
1
43
0.0
10
1011.0858043590877
20
20.431384900876779
10
1109.3910966638839
20
54.217174891550492
42
0.84681015710241025
10
1108.0910065905107
20
61.999999999999993
10
1009.7857142857141
20
62
42
0.41421356237309764
10
1005.7857142857142
20
57.999999999999964
10
1005.7857142857144
20
24.214210009326248
42
0.51485133716828413
0
LWPOLYLINE
5
189
100
AcDbEntity
8
0
100
AcDbPolyline
90
6
70
1
43
0.0
10
987.78571428571445
20
22
10
987.78571428571445
20
55.785789990673692
42
0.51485133716828679
10
982.48562421234112
20
59.568615099123207
10
884.18033190754488
20
25.782825108449529
42
0.8468101571024107
10
885.48042198091809
20
18
10
983.78571428571433
20
18.000000000000004
42
0.41421356237309503
0
LWPOLYLINE
5
190
100
AcDbEntity
8
0
100
AcDbPolyline
90
6
70
1
43
0.0
10
1281.1947076952038
20
18
10
1377.9999999999998
20
18
42
0.41421356237309503
10
1382
20
22
10
1382
20
55.270266524969607
42
0.51485133716828679
10
1376.6999099266266
20
59.053091633419115
10
1279.8946176218305
20
25.782825108449501
42
0.8468101571024097
0
ENDSEC
0
SECTION
2
OBJECTS
0
DICTIONARY
5
C
100
AcDbDictionary
3
ACAD_GROUP
350
D
3
ACAD_MLINESTYLE
350
17
0
DICTIONARY
5
D
100
AcDbDictionary
0
DICTIONARY
5
1A
330
C
100
AcDbDictionary
0
DICTIONARY
5
17
100
AcDbDictionary
0
ENDSEC
0
EOF
