0
SECTION
2
HEADER
9
$INSUNITS
70
4
9
$ACADVER
1
AC1014
9
$HANDSEED
5
FFFF
0
ENDSEC
0
SECTION
2
TABLES
0
TABLE
2
VPORT
5
8
100
AcDbSymbolTable
0
ENDTAB
0
TABLE
2
LTYPE
5
5
100
AcDbSymbolTable
0
LTYPE
5
14
100
AcDbSymbolTableRecord
100
AcDbLinetypeTableRecord
2
BYBLOCK
70
0
0
LTYPE
5
15
100
AcDbSymbolTableRecord
100
AcDbLinetypeTableRecord
2
BYLAYER
70
0
0
ENDTAB
0
TABLE
2
LAYER
5
2
100
AcDbSymbolTable
70
2
0
LAYER
5
50
100
AcDbSymbolTableRecord
100
AcDbLayerTableRecord
2
0
70
0
6
CONTINUOUS
0
ENDTAB
0
TABLE
2
STYLE
5
3
100
AcDbSymbolTable
70
1
0
STYLE
5
11
100
AcDbSymbolTableRecord
100
AcDbTextStyleTableRecord
2
STANDARD
70
0
0
ENDTAB
0
TABLE
2
VIEW
5
6
100
AcDbSymbolTable
70
0
0
ENDTAB
0
TABLE
2
UCS
5
7
100
AcDbSymbolTable
70
0
0
ENDTAB
0
TABLE
2
APPID
5
9
100
AcDbSymbolTable
70
2
0
APPID
5
12
100
AcDbSymbolTableRecord
100
AcDbRegAppTableRecord
2
ACAD
70
0
0
ENDTAB
0
TABLE
2
DIMSTYLE
5
A
100
AcDbSymbolTable
70
1
0
ENDTAB
0
TABLE
2
BLOCK_RECORD
5
1
100
AcDbSymbolTable
70
1
0
BLOCK_RECORD
5
1F
100
AcDbSymbolTableRecord
100
AcDbBlockTableRecord
2
*MODEL_SPACE
0
BLOCK_RECORD
5
1B
100
AcDbSymbolTableRecord
100
AcDbBlockTableRecord
2
*PAPER_SPACE
0
ENDTAB
0
ENDSEC
0
SECTION
2
BLOCKS
0
BLOCK
5
20
100
AcDbEntity
100
AcDbBlockBegin
2
*MODEL_SPACE
0
ENDBLK
5
21
100
AcDbEntity
100
AcDbBlockEnd
0
BLOCK
5
1C
100
AcDbEntity
100
AcDbBlockBegin
2
*PAPER_SPACE
0
ENDBLK
5
1D
100
AcDbEntity
100
AcDbBlockEnd
0
ENDSEC
0
SECTION
2
ENTITIES
0
ARC
5
100
100
AcDbEntity
8
0
100
AcDbCircle
10
-22.849479795500322
20
-49.364391549916142
30
0
40
5.4289895692598673
210
0
220
0
230
1
100
AcDbArc
50
142.75604201509253
51
197.24395798491014
0
ARC
5
101
100
AcDbEntity
8
0
100
AcDbCircle
10
-30.517576001610649
20
-51.744512151297599
30
0
40
2.5999999999999952
210
0
220
0
230
1
100
AcDbArc
50
-162.75604201508986
51
17.243957984907368
0
ARC
5
102
100
AcDbEntity
8
0
100
AcDbCircle
10
-22.849479795500322
20
-49.364391549916142
30
0
40
10.62898956925987
210
0
220
0
230
1
100
AcDbArc
50
142.75604201509438
51
197.24395798490946
0
ARC
5
103
100
AcDbEntity
8
0
100
AcDbCircle
10
-29.241084026641978
20
-44.505166420768902
30
0
40
2.6000000000000156
210
0
220
0
230
1
100
AcDbArc
50
-37.243957984904632
51
142.75604201509728
0
CIRCLE
5
104
100
AcDbEntity
8
0
100
AcDbCircle
10
-40.500000478053941
20
-65.115197616402313
30
0
40
2.5999999999999979
210
0
220
-0
230
1
0
CIRCLE
5
105
100
AcDbEntity
8
0
100
AcDbCircle
10
-96.674235478064901
20
-101.21519761640255
30
0
40
1.6000000000000014
210
-0
220
0
230
1
0
CIRCLE
5
106
100
AcDbEntity
8
0
100
AcDbCircle
10
5.6742345217476844
20
-57.165197616416748
30
0
40
3.5000000000000004
210
-0
220
0
230
1
0
CIRCLE
5
107
100
AcDbEntity
8
0
100
AcDbCircle
10
-96.674235478064901
20
-121.21519761640255
30
0
40
1.6000000000000014
210
-0
220
0
230
1
0
CIRCLE
5
108
100
AcDbEntity
8
0
100
AcDbCircle
10
-76.674235478064887
20
-121.21519761640255
30
0
40
1.6000000000000014
210
-0
220
0
230
1
0
CIRCLE
5
109
100
AcDbEntity
8
0
100
AcDbCircle
10
-13.555653424716745
20
-61.617189040307274
30
0
40
2.5999999999999979
210
-0
220
0
230
1
0
CIRCLE
5
110
100
AcDbEntity
8
0
100
AcDbCircle
10
23.116301070297318
20
-27.267130289663328
30
0
40
2.5999999999999979
210
-0
220
0
230
1
0
CIRCLE
5
111
100
AcDbEntity
8
0
100
AcDbCircle
10
15.674234521775009
20
-98.215197616413533
30
0
40
1.6000000000000014
210
-0
220
0
230
1
0
CIRCLE
5
112
100
AcDbEntity
8
0
100
AcDbCircle
10
-4.3257654782249917
20
-98.215197616414812
30
0
40
1.5999999999999996
210
-0
220
0
230
1
0
CIRCLE
5
113
100
AcDbEntity
8
0
100
AcDbCircle
10
15.674234521763591
20
-78.215197616392544
30
0
40
1.5999999999999992
210
-0
220
0
230
1
0
CIRCLE
5
114
100
AcDbEntity
8
0
100
AcDbCircle
10
-4.325765478236411
20
-78.215197616414102
30
0
40
1.6000000000000003
210
-0
220
0
230
1
0
CIRCLE
5
115
100
AcDbEntity
8
0
100
AcDbCircle
10
28.845684827157221
20
-111.29019761640234
30
0
40
2.5999999999999979
210
-0
220
0
230
1
0
CIRCLE
5
116
100
AcDbEntity
8
0
100
AcDbCircle
10
-76.674235478064887
20
-101.21519761640255
30
0
40
1.6000000000000014
210
-0
220
0
230
1
0
LWPOLYLINE
5
117
100
AcDbEntity
8
0
100
AcDbPolyline
90
25
70
1
43
0.0
10
0.79083035464242002
20
-123.95371702209474
10
-68.674235478064901
20
-140.96519761640258
10
-110.17423547806487
20
-140.96519761640255
10
-113.17423547806486
20
-137.96519761640252
10
-113.17423547806486
20
-134.96519761640255
10
-105.67423547806486
20
-134.96519761640258
42
0.41421356237309293
10
-103.17423547806486
20
-132.46519761640255
10
-103.17423547806486
20
-88.46519761640252
10
-98.037336572093793
20
-79.364831568686014
10
9.820995423167048
20
-14.267130289663349
10
26.589876838517426
20
-14.267130289663328
10
31.235473476224087
20
-20.23716403786187
10
31.165439866705889
20
-20.798497533689311
10
31.007598090369473
20
-20.921322505266623
42
0.41421356237309287
10
30.692446847537592
20
-23.447323236490089
10
33.985339015506199
20
-27.67900301953209
10
32.934834872733241
20
-36.099005456943665
10
24.674234283658389
20
-42.527012389672265
10
24.67423428365819
20
-95.793747072903273
10
37.845684827157221
20
-108.96519761640226
10
37.845684827157221
20
-113.61519761640231
10
31.845684827157221
20
-119.61519761640231
10
2.8956848271572055
20
-119.61519761640231
42
0.41421356237309587
10
1.0956848271572051
20
-121.41519761640231
10
1.0956848271572017
20
-123.56519761640232
0
CIRCLE
5
118
100
AcDbEntity
8
0
100
AcDbCircle
10
-96.674235478064901
20
-101.21519761640255
30
0
40
3.6250000000000067
210
0
220
-0
230
1
0
CIRCLE
5
119
100
AcDbEntity
8
0
100
AcDbCircle
10
-76.674235478064887
20
-101.21519761640255
30
0
40
3.6249999999999982
210
0
220
-0
230
1
0
CIRCLE
5
120
100
AcDbEntity
8
0
100
AcDbCircle
10
-96.674235478064901
20
-121.21519761640255
30
0
40
3.6250000000000067
210
0
220
-0
230
1
0
CIRCLE
5
121
100
AcDbEntity
8
0
100
AcDbCircle
10
-76.674235478064887
20
-121.21519761640255
30
0
40
3.6249999999999982
210
0
220
-0
230
1
0
CIRCLE
5
122
100
AcDbEntity
8
0
100
AcDbCircle
10
-4.325765478236411
20
-78.215197616414102
30
0
40
3.6250000000000004
210
0
220
-0
230
1
0
CIRCLE
5
123
100
AcDbEntity
8
0
100
AcDbCircle
10
15.674234521763591
20
-78.215197616392544
30
0
40
3.6250000000000004
210
0
220
-0
230
1
0
CIRCLE
5
124
100
AcDbEntity
8
0
100
AcDbCircle
10
15.674234521775009
20
-98.215197616413533
30
0
40
3.6250000000000004
210
0
220
-0
230
1
0
CIRCLE
5
125
100
AcDbEntity
8
0
100
AcDbCircle
10
-4.3257654782249917
20
-98.215197616414812
30
0
40
3.6250000000000009
210
0
220
-0
230
1
0
LINE
5
126
100
AcDbEntity
8
0
100
AcDbLine
10
-42.888574824895649
20
-118.36859685520082
30
0
11
-42.888574824895649
21
-121.71060218020085
31
0
0
SPLINE
5
127
100
AcDbEntity
8
0
100
AcDbSpline
70
0
71
3
72
8
73
4
74
0
42
0.000000001
43
0.0000000001
44
0.0000000001
40
0
40
0
40
0
40
0
40
1
40
1
40
1
40
1
10
-42.888574824895649
20
-121.71060218020085
30
0
10
-42.888574824895649
20
-121.94989980520091
30
0
10
-43.045548549895649
20
-122.16089063020092
30
0
10
-43.274714199895712
20
-122.22975638020091
30
0
0
SPLINE
5
128
100
AcDbEntity
8
0
100
AcDbSpline
70
0
71
3
72
8
73
4
74
0
42
0.000000001
43
0.0000000001
44
0.0000000001
40
0
40
0
40
0
40
0
40
1
40
1
40
1
40
1
10
-43.274714199895712
20
-122.22975638020091
30
0
10
-46.577454324895683
20
-123.2221422802008
30
0
10
-49.603959924895605
20
-124.96956765520071
30
0
10
-52.114755849895587
20
-127.3336311802008
30
0
0
SPLINE
5
129
100
AcDbEntity
8
0
100
AcDbSpline
70
0
71
3
72
8
73
4
74
0
42
0.000000001
43
0.0000000001
44
0.0000000001
40
0
40
0
40
0
40
0
40
1
40
1
40
1
40
1
10
-52.114755849895587
20
-127.3336311802008
30
0
10
-52.288985949895533
20
-127.49766945520086
30
0
10
-52.550144799895563
20
-127.52804580520078
30
0
10
-52.757390949895537
20
-127.40839395520067
30
0
0
LINE
5
130
100
AcDbEntity
8
0
100
AcDbLine
10
-52.75739094989553
20
-127.40839395520068
30
0
11
-55.651632999895554
21
-125.73733268020095
31
0
0
SPLINE
5
131
100
AcDbEntity
8
0
100
AcDbSpline
70
0
71
3
72
8
73
4
74
0
42
0.000000001
43
0.0000000001
44
0.0000000001
40
0
40
0
40
0
40
0
40
1
40
1
40
1
40
1
10
-55.651632999895554
20
-125.73733268020095
30
0
10
-55.858873299895592
20
-125.61768690520086
30
0
10
-55.963204224895492
20
-125.3763197302009
30
0
10
-55.9082454998955
20
-125.14341570520088
30
0
0
SPLINE
5
132
100
AcDbEntity
8
0
100
AcDbSpline
70
0
71
3
72
8
73
4
74
0
42
0.000000001
43
0.0000000001
44
0.0000000001
40
0
40
0
40
0
40
0
40
1
40
1
40
1
40
1
10
-55.9082454998955
20
-125.14341570520088
30
0
10
-55.116307149895519
20
-121.78696650520088
30
0
10
-55.116307149895519
20
-118.29223253020096
30
0
10
-55.9082454998955
20
-114.93578333020079
30
0
0
SPLINE
5
133
100
AcDbEntity
8
0
100
AcDbSpline
70
0
71
3
72
8
73
4
74
0
42
0.000000001
43
0.0000000001
44
0.0000000001
40
0
40
0
40
0
40
0
40
1
40
1
40
1
40
1
10
-55.9082454998955
20
-114.93578333020079
30
0
10
-55.963204674895607
20
-114.70287930520108
30
0
10
-55.858873299895592
20
-114.46151753020101
30
0
10
-55.651632999895554
20
-114.34186568020102
30
0
0
LINE
5
134
100
AcDbEntity
8
0
100
AcDbLine
10
-55.65163299989554
20
-114.34186568020102
30
0
11
-52.757390949895523
21
-112.67080553020105
31
0
0
SPLINE
5
135
100
AcDbEntity
8
0
100
AcDbSpline
70
0
71
3
72
8
73
4
74
0
42
0.000000001
43
0.0000000001
44
0.0000000001
40
0
40
0
40
0
40
0
40
1
40
1
40
1
40
1
10
-52.757390949895523
20
-112.67080553020105
30
0
10
-52.666720674895529
20
-112.61845973020098
30
0
10
-52.565647974895583
20
-112.59487950520096
30
0
10
-52.466129574895533
20
-112.59860010520093
30
0
0
SPLINE
5
136
100
AcDbEntity
8
0
100
AcDbSpline
70
0
71
3
72
8
73
4
74
0
42
0.000000001
43
0.0000000001
44
0.0000000001
40
0
40
0
40
0
40
0
40
1
40
1
40
1
40
1
10
-52.466129574895533
20
-112.59860010520093
30
0
10
-52.338177924895497
20
-112.6033626802009
30
0
10
-52.212760449895548
20
-112.65329153020092
30
0
10
-52.114755849895573
20
-112.74557100520099
30
0
0
SPLINE
5
137
100
AcDbEntity
8
0
100
AcDbSpline
70
0
71
3
72
8
73
4
74
0
42
0.000000001
43
0.0000000001
44
0.0000000001
40
0
40
0
40
0
40
0
40
1
40
1
40
1
40
1
10
-52.114755849895573
20
-112.74557100520099
30
0
10
-49.603959924895605
20
-115.10962778020101
30
0
10
-46.577454324895662
20
-116.85705023020094
30
0
10
-43.274714199895712
20
-117.84944220520075
30
0
0
SPLINE
5
138
100
AcDbEntity
8
0
100
AcDbSpline
70
0
71
3
72
8
73
4
74
0
42
0.000000001
43
0.0000000001
44
0.0000000001
40
0
40
0
40
0
40
0
40
1
40
1
40
1
40
1
10
-43.274714199895712
20
-117.84944220520075
30
0
10
-43.045548549895649
20
-117.9183025552009
30
0
10
-42.888574824895649
20
-118.12929923020093
30
0
10
-42.888574824895649
20
-118.36859685520082
30
0
0
ENDSEC
0
SECTION
2
OBJECTS
0
DICTIONARY
5
C
100
AcDbDictionary
3
ACAD_GROUP
350
D
3
ACAD_MLINESTYLE
350
17
0
DICTIONARY
5
D
100
AcDbDictionary
0
DICTIONARY
5
1A
330
C
100
AcDbDictionary
0
DICTIONARY
5
17
100
AcDbDictionary
0
ENDSEC
0
EOF
